  0
SECTION
  2
HEADER
  9
$ACADVER
  1
AC1015
  9
$ACADMAINTVER
 70
     6
  9
$DWGCODEPAGE
  3
ANSI_1254
  9
$INSBASE
 10
0.0
 20
0.0
 30
0.0
  9
$EXTMIN
 10
0.0
 20
0.0
 30
0.0
  9
$EXTMAX
 10
279.4
 20
215.9
 30
0.0
  9
$LIMMIN
 10
0.0
 20
0.0
  9
$LIMMAX
 10
279.4
 20
215.9
  9
$ORTHOMODE
 70
     0
  9
$REGENMODE
 70
     1
  9
$FILLMODE
 70
     1
  9
$QTEXTMODE
 70
     0
  9
$MIRRTEXT
 70
     1
  9
$LTSCALE
 40
1.0
  9
$ATTMODE
 70
     1
  9
$TEXTSIZE
 40
3.5
  9
$TRACEWID
 40
1.0
  9
$TEXTSTYLE
  7
Standard
  9
$CLAYER
  8
0
  9
$CELTYPE
  6
ByLayer
  9
$CECOLOR
 62
   256
  9
$CELTSCALE
 40
1.0
  9
$DISPSILH
 70
     0
  9
$DIMSCALE
 40
1.0
  9
$DIMASZ
 40
3.5
  9
$DIMEXO
 40
1.0
  9
$DIMDLI
 40
3.75
  9
$DIMRND
 40
0.0
  9
$DIMDLE
 40
0.0
  9
$DIMEXE
 40
1.0
  9
$DIMTP
 40
0.0
  9
$DIMTM
 40
0.0
  9
$DIMTXT
 40
3.5
  9
$DIMCEN
 40
2.5
  9
$DIMTSZ
 40
0.0
  9
$DIMTOL
 70
     0
  9
$DIMLIM
 70
     0
  9
$DIMTIH
 70
     1
  9
$DIMTOH
 70
     1
  9
$DIMSE1
 70
     0
  9
$DIMSE2
 70
     0
  9
$DIMTAD
 70
     1
  9
$DIMZIN
 70
     0
  9
$DIMBLK
  1

  9
$DIMASO
 70
     1
  9
$DIMSHO
 70
     1
  9
$DIMPOST
  1

  9
$DIMAPOST
  1

  9
$DIMALT
 70
     0
  9
$DIMALTD
 70
     3
  9
$DIMALTF
 40
0.0393700787
  9
$DIMLFAC
 40
1.0
  9
$DIMTOFL
 70
     1
  9
$DIMTVP
 40
0.0
  9
$DIMTIX
 70
     0
  9
$DIMSOXD
 70
     0
  9
$DIMSAH
 70
     0
  9
$DIMBLK1
  1

  9
$DIMBLK2
  1

  9
$DIMSTYLE
  2
ISO-25
  9
$DIMCLRD
 70
     0
  9
$DIMCLRE
 70
     0
  9
$DIMCLRT
 70
     0
  9
$DIMTFAC
 40
1.0
  9
$DIMGAP
 40
1.524
  9
$DIMJUST
 70
     0
  9
$DIMSD1
 70
     0
  9
$DIMSD2
 70
     0
  9
$DIMTOLJ
 70
     0
  9
$DIMTZIN
 70
     0
  9
$DIMALTZ
 70
     0
  9
$DIMALTTZ
 70
     0
  9
$DIMUPT
 70
     0
  9
$DIMDEC
 70
     2
  9
$DIMTDEC
 70
     2
  9
$DIMALTU
 70
     2
  9
$DIMALTTD
 70
     3
  9
$DIMTXSTY
  7
Standard
  9
$DIMAUNIT
 70
     0
  9
$DIMADEC
 70
     2
  9
$DIMALTRND
 40
0.0
  9
$DIMAZIN
 70
     0
  9
$DIMDSEP
 70
    44
  9
$DIMATFIT
 70
     3
  9
$DIMFRAC
 70
     0
  9
$DIMLDRBLK
  1

  9
$DIMLUNIT
 70
     2
  9
$DIMLWD
 70
    -2
  9
$DIMLWE
 70
    -2
  9
$DIMTMOVE
 70
     0
  9
$LUNITS
 70
     2
  9
$LUPREC
 70
     2
  9
$SKETCHINC
 40
1.0
  9
$FILLETRAD
 40
10.0
  9
$AUNITS
 70
     0
  9
$AUPREC
 70
     2
  9
$MENU
  1
.
  9
$ELEVATION
 40
0.0
  9
$PELEVATION
 40
0.0
  9
$THICKNESS
 40
0.0
  9
$LIMCHECK
 70
     0
  9
$CHAMFERA
 40
0.0
  9
$CHAMFERB
 40
0.0
  9
$CHAMFERC
 40
0.0
  9
$CHAMFERD
 40
0.0
  9
$SKPOLY
 70
     0
  9
$TDCREATE
 40
2458985.690715498
  9
$TDUCREATE
 40
2458985.565715498
  9
$TDUPDATE
 40
2458985.690715822
  9
$TDUUPDATE
 40
2458985.565715822
  9
$TDINDWG
 40
0.0000000116
  9
$TDUSRTIMER
 40
0.0000000116
  9
$USRTIMER
 70
     1
  9
$ANGBASE
 50
0.0
  9
$ANGDIR
 70
     0
  9
$PDMODE
 70
     0
  9
$PDSIZE
 40
-1.0
  9
$PLINEWID
 40
0.0
  9
$SPLFRAME
 70
     0
  9
$SPLINETYPE
 70
     6
  9
$SPLINESEGS
 70
     8
  9
$HANDSEED
  5
CB
  9
$SURFTAB1
 70
     6
  9
$SURFTAB2
 70
     6
  9
$SURFTYPE
 70
     6
  9
$SURFU
 70
     6
  9
$SURFV
 70
     6
  9
$UCSBASE
  2

  9
$UCSNAME
  2

  9
$UCSORG
 10
0.0
 20
0.0
 30
0.0
  9
$UCSXDIR
 10
1.0
 20
0.0
 30
0.0
  9
$UCSYDIR
 10
0.0
 20
1.0
 30
0.0
  9
$UCSORTHOREF
  2

  9
$UCSORTHOVIEW
 70
     0
  9
$UCSORGTOP
 10
0.0
 20
0.0
 30
0.0
  9
$UCSORGBOTTOM
 10
0.0
 20
0.0
 30
0.0
  9
$UCSORGLEFT
 10
0.0
 20
0.0
 30
0.0
  9
$UCSORGRIGHT
 10
0.0
 20
0.0
 30
0.0
  9
$UCSORGFRONT
 10
0.0
 20
0.0
 30
0.0
  9
$UCSORGBACK
 10
0.0
 20
0.0
 30
0.0
  9
$PUCSBASE
  2

  9
$PUCSNAME
  2

  9
$PUCSORG
 10
0.0
 20
0.0
 30
0.0
  9
$PUCSXDIR
 10
1.0
 20
0.0
 30
0.0
  9
$PUCSYDIR
 10
0.0
 20
1.0
 30
0.0
  9
$PUCSORTHOREF
  2

  9
$PUCSORTHOVIEW
 70
     0
  9
$PUCSORGTOP
 10
0.0
 20
0.0
 30
0.0
  9
$PUCSORGBOTTOM
 10
0.0
 20
0.0
 30
0.0
  9
$PUCSORGLEFT
 10
0.0
 20
0.0
 30
0.0
  9
$PUCSORGRIGHT
 10
0.0
 20
0.0
 30
0.0
  9
$PUCSORGFRONT
 10
0.0
 20
0.0
 30
0.0
  9
$PUCSORGBACK
 10
0.0
 20
0.0
 30
0.0
  9
$USERI1
 70
     0
  9
$USERI2
 70
     0
  9
$USERI3
 70
     0
  9
$USERI4
 70
     0
  9
$USERI5
 70
     0
  9
$USERR1
 40
0.0
  9
$USERR2
 40
0.0
  9
$USERR3
 40
0.0
  9
$USERR4
 40
0.0
  9
$USERR5
 40
0.0
  9
$WORLDVIEW
 70
     1
  9
$SHADEDGE
 70
     3
  9
$SHADEDIF
 70
    70
  9
$TILEMODE
 70
     1
  9
$MAXACTVP
 70
    64
  9
$PINSBASE
 10
0.0
 20
0.0
 30
0.0
  9
$PLIMCHECK
 70
     0
  9
$PEXTMIN
 10
1.0000000000E+20
 20
1.0000000000E+20
 30
1.0000000000E+20
  9
$PEXTMAX
 10
-1.0000000000E+20
 20
-1.0000000000E+20
 30
-1.0000000000E+20
  9
$PLIMMIN
 10
0.0
 20
0.0
  9
$PLIMMAX
 10
420.0
 20
297.0
  9
$UNITMODE
 70
     0
  9
$VISRETAIN
 70
     1
  9
$PLINEGEN
 70
     0
  9
$PSLTSCALE
 70
     1
  9
$TREEDEPTH
 70
  3020
  9
$CMLSTYLE
  2
Standard
  9
$CMLJUST
 70
     0
  9
$CMLSCALE
 40
20.0
  9
$PROXYGRAPHICS
 70
     1
  9
$MEASUREMENT
 70
     1
  9
$CELWEIGHT
370
    -1
  9
$ENDCAPS
280
     0
  9
$JOINSTYLE
280
     0
  9
$LWDISPLAY
290
     1
  9
$INSUNITS
 70
     4
  9
$HYPERLINKBASE
  1

  9
$STYLESHEET
  1

  9
$XEDIT
290
     1
  9
$CEPSNTYPE
380
     0
  9
$PSTYLEMODE
290
     1
  9
$FINGERPRINTGUID
  2
{81262dad-abaa-4c0a-9212-b5669afe2815}
  9
$VERSIONGUID
  2
{FAEB1C32-E019-11D5-929B-00C0DF256EC4}
  9
$EXTNAMES
290
     1
  9
$PSVPSCALE
 40
0.0
  9
$OLESTARTUP
290
     0
  0
ENDSEC
  0
SECTION
  2
CLASSES
  0
CLASS
  1
ACDBDICTIONARYWDFLT
  2
AcDbDictionaryWithDefault
  3
ObjectDBX Classes
 90
        0
280
     0
281
     0
  0
CLASS
  1
VISUALSTYLE
  2
AcDbVisualStyle
  3
ObjectDBX Classes
 90
     4095
280
     0
281
     0
  0
CLASS
  1
MATERIAL
  2
AcDbMaterial
  3
ObjectDBX Classes
 90
     1153
280
     0
281
     0
  0
CLASS
  1
SCALE
  2
AcDbScale
  3
ObjectDBX Classes
 90
     1153
280
     0
281
     0
  0
CLASS
  1
TABLESTYLE
  2
AcDbTableStyle
  3
ObjectDBX Classes
 90
     4095
280
     0
281
     0
  0
CLASS
  1
MLEADERSTYLE
  2
AcDbMLeaderStyle
  3
ACDB_MLEADERSTYLE_CLASS
 90
     4095
280
     0
281
     0
  0
CLASS
  1
SUN
  2
AcDbSun
  3
SCENEOE
 90
     1153
280
     0
281
     0
  0
CLASS
  1
ACDBPLACEHOLDER
  2
AcDbPlaceHolder
  3
ObjectDBX Classes
 90
        0
280
     0
281
     0
  0
CLASS
  1
LAYOUT
  2
AcDbLayout
  3
ObjectDBX Classes
 90
        0
280
     0
281
     0
  0
ENDSEC
  0
SECTION
  2
TABLES
  0
TABLE
  2
VPORT
  5
8
330
0
100
AcDbSymbolTable
 70
     1
  0
VPORT
  5
29
330
8
100
AcDbSymbolTableRecord
100
AcDbViewportTableRecord
  2
*Active
 70
     0
 10
0.0
 20
0.0
 11
1.0
 21
1.0
 12
139.7
 22
107.95
 13
0.0
 23
0.0
 14
10.0
 24
10.0
 15
10.0
 25
10.0
 16
0.0
 26
0.0
 36
1.0
 17
0.0
 27
0.0
 37
0.0
 40
215.9
 41
1.2941176471
 42
50.0
 43
0.0
 44
0.0
 50
0.0
 51
0.0
 71
     0
 72
  2000
 73
     1
 74
     3
 75
     0
 76
     0
 77
     0
 78
     0
281
     0
 65
     1
110
0.0
120
0.0
130
0.0
111
1.0
121
0.0
131
0.0
112
0.0
122
1.0
132
0.0
 79
     0
146
0.0
  0
ENDTAB
  0
TABLE
  2
LTYPE
  5
5
330
0
100
AcDbSymbolTable
 70
     6
  0
LTYPE
  5
14
330
5
100
AcDbSymbolTableRecord
100
AcDbLinetypeTableRecord
  2
ByBlock
 70
     0
  3

 72
    65
 73
     0
 40
0.0
  0
LTYPE
  5
15
330
5
100
AcDbSymbolTableRecord
100
AcDbLinetypeTableRecord
  2
ByLayer
 70
     0
  3

 72
    65
 73
     0
 40
0.0
  0
LTYPE
  5
16
330
5
100
AcDbSymbolTableRecord
100
AcDbLinetypeTableRecord
  2
Continuous
 70
     0
  3
Solid line
 72
    65
 73
     0
 40
0.0
  0
LTYPE
  5
6E
330
5
100
AcDbSymbolTableRecord
100
AcDbLinetypeTableRecord
  2
HIDDEN
 70
     0
  3
Hidden __ __ __ __ __ __ __ __ __ __ __ __ __ __
 72
    65
 73
     2
 40
1.905
 49
1.27
 74
     0
 49
-0.635
 74
     0
  0
LTYPE
  5
6F
330
5
100
AcDbSymbolTableRecord
100
AcDbLinetypeTableRecord
  2
PHANTOM
 70
     0
  3
Phantom ______  __  __  ______  __  __  ______
 72
    65
 73
     6
 40
12.7
 49
6.35
 74
     0
 49
-1.27
 74
     0
 49
1.27
 74
     0
 49
-1.27
 74
     0
 49
1.27
 74
     0
 49
-1.27
 74
     0
  0
LTYPE
  5
70
330
5
100
AcDbSymbolTableRecord
100
AcDbLinetypeTableRecord
  2
CENTER
 70
     0
  3
Center ____ _ ____ _ ____ _ ____ _ ____ _ ____
 72
    65
 73
     4
 40
10.16
 49
6.35
 74
     0
 49
-1.27
 74
     0
 49
1.27
 74
     0
 49
-1.27
 74
     0
  0
LTYPE
  5
71
330
5
100
AcDbSymbolTableRecord
100
AcDbLinetypeTableRecord
  2
CENTERX2
 70
     0
  3
Center (2x) ________  __  ________  __  _____
 72
    65
 73
     4
 40
20.32
 49
12.7
 74
     0
 49
-2.54
 74
     0
 49
2.54
 74
     0
 49
-2.54
 74
     0
  0
LTYPE
  5
72
330
5
100
AcDbSymbolTableRecord
100
AcDbLinetypeTableRecord
  2
DOT2
 70
     0
  3
Dot (.5x) ........................................
 72
    65
 73
     2
 40
0.635
 49
0.0
 74
     0
 49
-0.635
 74
     0
  0
ENDTAB
  0
TABLE
  2
LAYER
  5
2
330
0
100
AcDbSymbolTable
 70
    17
  0
LAYER
  5
10
330
2
100
AcDbSymbolTableRecord
100
AcDbLayerTableRecord
  2
0
 70
     0
 62
     7
  6
Continuous
370
    -3
390
F
  0
LAYER
  5
73
330
2
100
AcDbSymbolTableRecord
100
AcDbLayerTableRecord
  2
FORMAT
 70
     0
 62
     7
  6
Continuous
370
    -3
390
F
  0
LAYER
  5
74
330
2
100
AcDbSymbolTableRecord
100
AcDbLayerTableRecord
  2
YARDIMCI_GEOMETRI
 70
     0
 62
    -6
  6
Continuous
290
     0
370
    -3
390
F
  0
LAYER
  5
75
330
2
100
AcDbSymbolTableRecord
100
AcDbLayerTableRecord
  2
SAYFA_CERCEVESI
 70
     0
 62
     7
  6
Continuous
370
    25
390
F
  0
LAYER
  5
76
330
2
100
AcDbSymbolTableRecord
100
AcDbLayerTableRecord
  2
ANTET
 70
     0
 62
     7
  6
Continuous
370
    -3
390
F
  0
LAYER
  5
77
330
2
100
AcDbSymbolTableRecord
100
AcDbLayerTableRecord
  2
OLCU
 70
     0
 62
   150
  6
Continuous
370
    -3
390
F
  0
LAYER
  5
78
330
2
100
AcDbSymbolTableRecord
100
AcDbLayerTableRecord
  2
METIN
 70
     0
 62
    96
  6
Continuous
370
    -3
390
F
  0
LAYER
  5
79
330
2
100
AcDbSymbolTableRecord
100
AcDbLayerTableRecord
  2
BALON
 70
     0
 62
     5
  6
Continuous
370
    -3
390
F
  0
LAYER
  5
7A
330
2
100
AcDbSymbolTableRecord
100
AcDbLayerTableRecord
  2
VURGU
 70
     0
 62
     7
  6
Continuous
370
    -3
390
F
  0
LAYER
  5
7B
330
2
100
AcDbSymbolTableRecord
100
AcDbLayerTableRecord
  2
SILIK
 70
     0
 62
     7
  6
Continuous
370
    -3
390
F
  0
LAYER
  5
7C
330
2
100
AcDbSymbolTableRecord
100
AcDbLayerTableRecord
  2
MODEL
 70
     0
 62
     7
  6
Continuous
370
    -3
390
F
  0
LAYER
  5
7D
330
2
100
AcDbSymbolTableRecord
100
AcDbLayerTableRecord
  2
DETAYLANDıRMA
 70
     0
 62
   190
  6
Continuous
370
    -3
390
F
  0
LAYER
  5
7E
330
2
100
AcDbSymbolTableRecord
100
AcDbLayerTableRecord
  2
TOLERANS
 70
     0
 62
   230
  6
Continuous
370
    -3
390
F
  0
LAYER
  5
7F
330
2
100
AcDbSymbolTableRecord
100
AcDbLayerTableRecord
  2
MERKEZ_CIZGILERI
 70
     0
 62
    30
  6
Continuous
370
    -3
390
F
  0
LAYER
  5
80
330
2
100
AcDbSymbolTableRecord
100
AcDbLayerTableRecord
  2
KESIT-DETAY_CIZGILERI
 70
     0
 62
     7
  6
Continuous
370
    -3
390
F
  0
LAYER
  5
81
330
2
100
AcDbSymbolTableRecord
100
AcDbLayerTableRecord
  2
\U+041E\U+0421\U+0415\U+0412\U+042B\U+0415
 70
     0
 62
     7
  6
Continuous
370
    -3
390
F
  0
LAYER
  5
82
330
2
100
AcDbSymbolTableRecord
100
AcDbLayerTableRecord
  2
\U+0412\U+041E\U+0414\U+042F\U+041D\U+042B\U+0415_\U+0417\U+041D\U+0410\U+041A\U+0418
 70
     0
 62
    11
  6
Continuous
370
    -3
390
F
  0
ENDTAB
  0
TABLE
  2
STYLE
  5
3
330
0
100
AcDbSymbolTable
 70
     1
  0
STYLE
  5
11
330
3
100
AcDbSymbolTableRecord
100
AcDbTextStyleTableRecord
  2
Standard
 70
     0
 40
0.0
 41
1.0
 50
0.0
 71
     0
 42
3.5
  3
txt
  4

  0
ENDTAB
  0
TABLE
  2
VIEW
  5
6
330
0
100
AcDbSymbolTable
 70
     0
  0
ENDTAB
  0
TABLE
  2
UCS
  5
7
330
0
100
AcDbSymbolTable
 70
     0
  0
ENDTAB
  0
TABLE
  2
APPID
  5
9
330
0
100
AcDbSymbolTable
 70
     1
  0
APPID
  5
12
330
9
100
AcDbSymbolTableRecord
100
AcDbRegAppTableRecord
  2
ACAD
 70
     0
  0
ENDTAB
  0
TABLE
  2
DIMSTYLE
  5
A
330
0
100
AcDbSymbolTable
 70
     1
100
AcDbDimStyleTable
  0
DIMSTYLE
105
27
330
A
100
AcDbSymbolTableRecord
100
AcDbDimStyleTableRecord
  2
ISO-25
 70
     0
 41
2.5
 42
0.625
 43
3.75
 44
1.25
 73
     0
 74
     0
 77
     1
 78
     8
140
2.5
141
2.5
143
0.0393700787
147
0.625
171
     3
172
     1
178
     0
271
     2
272
     2
274
     3
278
    44
283
     0
284
     8
340
11
  0
ENDTAB
  0
TABLE
  2
BLOCK_RECORD
  5
1
330
0
100
AcDbSymbolTable
 70
     3
  0
BLOCK_RECORD
  5
1F
330
1
100
AcDbSymbolTableRecord
100
AcDbBlockTableRecord
  2
*Model_Space
340
22
  0
BLOCK_RECORD
  5
1B
330
1
100
AcDbSymbolTableRecord
100
AcDbBlockTableRecord
  2
*Paper_Space
340
1E
  0
BLOCK_RECORD
  5
23
330
1
100
AcDbSymbolTableRecord
100
AcDbBlockTableRecord
  2
*Paper_Space0
340
26
  0
BLOCK_RECORD
  5
88
330
1
100
AcDbSymbolTableRecord
100
AcDbBlockTableRecord
  2
SW_CENTERMARKSYMBOL_0
340
0
102
{BLKREFS
331
93
102
}
  0
BLOCK_RECORD
  5
9C
330
1
100
AcDbSymbolTableRecord
100
AcDbBlockTableRecord
  2
SW_CENTERMARKSYMBOL_1
340
0
102
{BLKREFS
331
A7
102
}
  0
ENDTAB
  0
ENDSEC
  0
SECTION
  2
BLOCKS
  0
BLOCK
  5
20
330
1F
100
AcDbEntity
  8
0
100
AcDbBlockBegin
  2
*Model_Space
 70
     0
 10
0.0
 20
0.0
 30
0.0
  3
*Model_Space
  1

  0
ENDBLK
  5
21
330
1F
100
AcDbEntity
  8
0
100
AcDbBlockEnd
  0
BLOCK
  5
1C
330
1B
100
AcDbEntity
 67
     1
  8
0
100
AcDbBlockBegin
  2
*Paper_Space
 70
     0
 10
0.0
 20
0.0
 30
0.0
  3
*Paper_Space
  1

  0
ENDBLK
  5
1D
330
1B
100
AcDbEntity
 67
     1
  8
0
100
AcDbBlockEnd
  0
BLOCK
  5
24
330
23
100
AcDbEntity
  8
0
100
AcDbBlockBegin
  2
*Paper_Space0
 70
     0
 10
0.0
 20
0.0
 30
0.0
  3
*Paper_Space0
  1

  0
ENDBLK
  5
25
330
23
100
AcDbEntity
  8
0
100
AcDbBlockEnd
  0
BLOCK
  5
89
330
88
100
AcDbEntity
  8
0
100
AcDbBlockBegin
  2
SW_CENTERMARKSYMBOL_0
 70
     0
 10
0.0
 20
0.0
 30
0.0
  3
SW_CENTERMARKSYMBOL_0
  1

  0
LINE
  5
8B
330
88
100
AcDbEntity
  8
FORMAT
 62
     0
100
AcDbLine
 10
0.0
 20
0.0
 30
0.0
 11
2.5
 21
0.0
 31
0.0
  0
LINE
  5
8C
330
88
100
AcDbEntity
  8
FORMAT
 62
     0
100
AcDbLine
 10
0.0
 20
0.0
 30
0.0
 11
0.0
 21
2.5
 31
0.0
  0
LINE
  5
8D
330
88
100
AcDbEntity
  8
FORMAT
 62
     0
100
AcDbLine
 10
0.0
 20
0.0
 30
0.0
 11
-2.5
 21
0.0
 31
0.0
  0
LINE
  5
8E
330
88
100
AcDbEntity
  8
FORMAT
 62
     0
100
AcDbLine
 10
0.0
 20
0.0
 30
0.0
 11
0.0
 21
-2.5
 31
0.0
  0
LINE
  5
8F
330
88
100
AcDbEntity
  8
FORMAT
 62
     0
100
AcDbLine
 10
5.0
 20
0.0
 30
0.0
 11
82.5
 21
0.0
 31
0.0
  0
LINE
  5
90
330
88
100
AcDbEntity
  8
FORMAT
 62
     0
100
AcDbLine
 10
0.0
 20
5.0
 30
0.0
 11
0.0
 21
82.5
 31
0.0
  0
LINE
  5
91
330
88
100
AcDbEntity
  8
FORMAT
 62
     0
100
AcDbLine
 10
-5.0
 20
0.0
 30
0.0
 11
-82.5
 21
0.0
 31
0.0
  0
LINE
  5
92
330
88
100
AcDbEntity
  8
FORMAT
 62
     0
100
AcDbLine
 10
0.0
 20
-5.0
 30
0.0
 11
0.0
 21
-82.5
 31
0.0
  0
ENDBLK
  5
8A
330
88
100
AcDbEntity
  8
0
100
AcDbBlockEnd
  0
BLOCK
  5
9D
330
9C
100
AcDbEntity
  8
0
100
AcDbBlockBegin
  2
SW_CENTERMARKSYMBOL_1
 70
     0
 10
0.0
 20
0.0
 30
0.0
  3
SW_CENTERMARKSYMBOL_1
  1

  0
LINE
  5
9F
330
9C
100
AcDbEntity
  8
FORMAT
 62
     0
100
AcDbLine
 10
0.0
 20
0.0
 30
0.0
 11
0.0
 21
2.5
 31
0.0
  0
LINE
  5
A0
330
9C
100
AcDbEntity
  8
FORMAT
 62
     0
100
AcDbLine
 10
0.0
 20
0.0
 30
0.0
 11
-2.5
 21
0.0
 31
0.0
  0
LINE
  5
A1
330
9C
100
AcDbEntity
  8
FORMAT
 62
     0
100
AcDbLine
 10
0.0
 20
0.0
 30
0.0
 11
0.0
 21
-2.5
 31
0.0
  0
LINE
  5
A2
330
9C
100
AcDbEntity
  8
FORMAT
 62
     0
100
AcDbLine
 10
0.0
 20
0.0
 30
0.0
 11
2.5
 21
0.0
 31
0.0
  0
LINE
  5
A3
330
9C
100
AcDbEntity
  8
FORMAT
 62
     0
100
AcDbLine
 10
0.0
 20
5.0
 30
0.0
 11
0.0
 21
47.5
 31
0.0
  0
LINE
  5
A4
330
9C
100
AcDbEntity
  8
FORMAT
 62
     0
100
AcDbLine
 10
-5.0
 20
0.0
 30
0.0
 11
-47.5
 21
0.0
 31
0.0
  0
LINE
  5
A5
330
9C
100
AcDbEntity
  8
FORMAT
 62
     0
100
AcDbLine
 10
0.0
 20
-5.0
 30
0.0
 11
0.0
 21
-47.5
 31
0.0
  0
LINE
  5
A6
330
9C
100
AcDbEntity
  8
FORMAT
 62
     0
100
AcDbLine
 10
5.0
 20
0.0
 30
0.0
 11
47.5
 21
0.0
 31
0.0
  0
ENDBLK
  5
9E
330
9C
100
AcDbEntity
  8
0
100
AcDbBlockEnd
  0
ENDSEC
  0
SECTION
  2
ENTITIES
  0
LINE
  5
83
330
1F
100
AcDbEntity
  8
0
  6
Continuous
 62
     7
370
    25
100
AcDbLine
 10
93.079257733
 20
95.6746386082
 30
0.0
 11
93.079257733
 21
-25.1784725397
 31
0.0
  0
LINE
  5
84
330
1F
100
AcDbEntity
  8
0
  6
Continuous
 62
     7
370
    25
100
AcDbLine
 10
183.0792613093
 20
-25.1784725397
 30
0.0
 11
183.0792613093
 21
95.6501485498
 31
0.0
  0
CIRCLE
  5
85
330
1F
100
AcDbEntity
  8
0
  6
Continuous
 62
     7
370
    25
100
AcDbCircle
 10
138.0792595212
 20
161.8215338976
 30
0.0
 40
70.50000000000001
  0
CIRCLE
  5
86
330
1F
100
AcDbEntity
  8
0
  6
Continuous
 62
     7
370
    25
100
AcDbCircle
 10
138.0792595212
 20
161.8215338976
 30
0.0
 40
80.0
  0
LINE
  5
87
330
1F
100
AcDbEntity
  8
0
  6
Continuous
 62
     7
370
    25
100
AcDbLine
 10
183.0792613093
 20
-25.1784725397
 30
0.0
 11
93.079257733
 21
-25.1784725397
 31
0.0
  0
INSERT
  5
93
330
1F
100
AcDbEntity
  8
FORMAT
 62
     7
100
AcDbBlockReference
  2
SW_CENTERMARKSYMBOL_0
 10
138.0792595212
 20
161.8215338976
 30
0.0
  0
LINE
  5
94
330
1F
100
AcDbEntity
  8
0
  6
Continuous
 62
     7
370
    25
100
AcDbLine
 10
218.079257733
 20
313.6795182864
 30
0.0
 11
218.079257733
 21
730.6795139949
 31
0.0
  0
LINE
  5
95
330
1F
100
AcDbEntity
  8
0
  6
Continuous
 62
     7
370
    25
100
AcDbLine
 10
58.0792613093
 20
730.6795139949
 30
0.0
 11
58.0792613093
 21
313.6795182864
 31
0.0
  0
CIRCLE
  5
96
330
1F
100
AcDbEntity
  8
0
  6
Continuous
 62
     7
370
    25
100
AcDbCircle
 10
138.0792595212
 20
522.1795161407
 30
0.0
 40
39.60000000000002
  0
CIRCLE
  5
97
330
1F
100
AcDbEntity
  8
0
  6
Continuous
 62
     7
370
    25
100
AcDbCircle
 10
138.0792595212
 20
522.1795161407
 30
0.0
 40
45.0
  0
LINE
  5
98
330
1F
100
AcDbEntity
  8
0
  6
Continuous
 62
     7
370
    25
100
AcDbLine
 10
138.0792595212
 20
730.6795139949
 30
0.0
 11
218.079257733
 21
730.6795139949
 31
0.0
  0
LINE
  5
99
330
1F
100
AcDbEntity
  8
0
  6
Continuous
 62
     7
370
    25
100
AcDbLine
 10
58.0792613093
 20
730.6795139949
 30
0.0
 11
138.0792595212
 21
730.6795139949
 31
0.0
  0
LINE
  5
9A
330
1F
100
AcDbEntity
  8
0
  6
Continuous
 62
     7
370
    25
100
AcDbLine
 10
138.0792595212
 20
313.6795182864
 30
0.0
 11
218.079257733
 21
313.6795182864
 31
0.0
  0
LINE
  5
9B
330
1F
100
AcDbEntity
  8
0
  6
Continuous
 62
     7
370
    25
100
AcDbLine
 10
58.0792613093
 20
313.6795182864
 30
0.0
 11
138.0792595212
 21
313.6795182864
 31
0.0
  0
INSERT
  5
A7
330
1F
100
AcDbEntity
  8
FORMAT
100
AcDbBlockReference
  2
SW_CENTERMARKSYMBOL_1
 10
138.0792595212
 20
522.1795161407
 30
0.0
  0
LINE
  5
A8
330
1F
100
AcDbEntity
  8
0
  6
Continuous
 62
     7
370
    25
100
AcDbLine
 10
-110.365583367
 20
241.8215321095
 30
0.0
 11
-527.3655790755
 21
241.8215321095
 31
0.0
  0
LINE
  5
A9
330
1F
100
AcDbEntity
  8
0
  6
Continuous
 62
     7
370
    25
100
AcDbLine
 10
-273.8790836104
 20
81.8215356857
 30
0.0
 11
-110.365583367
 21
81.8215356857
 31
0.0
  0
LINE
  5
AA
330
1F
100
AcDbEntity
  8
0
  6
Continuous
 62
     7
370
    25
100
AcDbLine
 10
-527.3655790755
 20
81.8215356857
 30
0.0
 11
-363.8655830094
 21
81.8215356857
 31
0.0
  0
LINE
  5
AB
330
1F
100
AcDbEntity
  8
0
  6
Continuous
 62
     7
370
    25
100
AcDbLine
 10
-363.8655830094
 20
81.8215356857
 30
0.0
 11
-363.8655830094
 21
-25.1784725397
 31
0.0
  0
LINE
  5
AC
330
1F
100
AcDbEntity
  8
0
  6
Continuous
 62
     7
370
    25
100
AcDbLine
 10
-273.8655794331
 20
-25.1784725397
 30
0.0
 11
-273.8655794331
 21
81.8291278274
 31
0.0
  0
SPLINE
  5
AD
330
1F
100
AcDbEntity
  8
0
  6
Continuous
 62
     7
370
    25
100
AcDbSpline
210
0.0
220
0.0
230
1.0
 70
     8
 71
     3
 72
    34
 73
    30
 74
     0
 42
0.000000001
 43
0.00000001
 40
0.0
 40
0.0
 40
0.0
 40
0.0
 40
0.0023453554494899
 40
0.0485449718400842
 40
0.0961109922292638
 40
0.1421459287334859
 40
0.189285572752606
 40
0.2401312920419687
 40
0.2921868787252404
 40
0.3201989004058215
 40
0.3482088146430571
 40
0.3771272133086997
 40
0.4060409469011186
 40
0.4502444589462413
 40
0.4956926389783359
 40
0.539919596488383
 40
0.585465804129503
 40
0.629484887188841
 40
0.6744753343387928
 40
0.725201123516549
 40
0.7771125523084629
 40
0.8052369111359565
 40
0.8333592446469166
 40
0.862411904263591
 40
0.8914612033452104
 40
0.9180824382673468
 40
0.9447015309014107
 40
0.9723512836273397
 40
1.0
 40
1.0
 40
1.0
 40
1.0
 10
-273.8790836104266
 20
81.8291352779538
 30
0.0
 10
-273.8747370626364
 20
81.82668767345979
 30
0.0
 10
-273.7847707250726
 20
81.7760263158122
 30
0.0
 10
-274.2964456910107
 20
82.06460695634458
 30
0.0
 10
-275.7915090882529
 20
82.89455119560425
 30
0.0
 10
-278.2887386135126
 20
84.23621239781001
 30
0.0
 10
-281.6788270155793
 20
85.96547255918584
 30
0.0
 10
-286.0483729558101
 20
88.02718214810753
 30
0.0
 10
-290.5385936629839
 20
89.90745400502921
 30
0.0
 10
-294.629283693457
 20
91.39958978671262
 30
0.0
 10
-298.0437829929212
 20
92.5051677826247
 30
0.0
 10
-301.6848306568669
 20
93.51478134149534
 30
0.0
 10
-306.2148047972899
 20
94.53824782319916
 30
0.0
 10
-311.7385795204237
 20
95.39637057169237
 30
0.0
 10
-318.1865498866608
 20
95.78169176323706
 30
0.0
 10
-324.7180084240728
 20
95.52317385292305
 30
0.0
 10
-331.0078432846573
 20
94.66365576029642
 30
0.0
 10
-337.0005987580827
 20
93.31136065428507
 30
0.0
 10
-342.7781073859396
 20
91.55590774893162
 30
0.0
 10
-348.2965601584593
 20
89.4814058093579
 30
0.0
 10
-352.5609531149979
 20
87.61221695539456
 30
0.0
 10
-355.631041440336
 20
86.15530382443018
 30
0.0
 10
-357.7854957452666
 20
85.08327297431332
 30
0.0
 10
-359.6668556329553
 20
84.11060454215172
 30
0.0
 10
-361.201055989258
 20
83.2920248399461
 30
0.0
 10
-362.3773350715044
 20
82.65069660662539
 30
0.0
 10
-363.2193758798076
 20
82.18381994993383
 30
0.0
 10
-363.7619600981243
 20
81.88011646944942
 30
0.0
 10
-363.8310424705165
 20
81.84106236967438
 30
0.0
 10
-363.8655830093734
 20
81.82153568574495
 30
0.0
  0
LINE
  5
AE
330
1F
100
AcDbEntity
  8
0
  6
Continuous
 62
     7
370
    25
100
AcDbLine
 10
-527.3655790755
 20
81.8215356857
 30
0.0
 11
-527.3655790755
 21
241.8215321095
 31
0.0
  0
LINE
  5
AF
330
1F
100
AcDbEntity
  8
0
  6
Continuous
 62
     7
370
    25
100
AcDbLine
 10
-110.365583367
 20
81.8215356857
 30
0.0
 11
-110.365583367
 21
241.8215321095
 31
0.0
  0
LINE
  5
B0
330
1F
100
AcDbEntity
  8
0
  6
Continuous
 62
     7
370
    25
100
AcDbLine
 10
-273.8655794331
 20
-25.1784725397
 30
0.0
 11
-363.8655830094
 21
-25.1784725397
 31
0.0
  0
LINE
  5
B1
330
1F
100
AcDbEntity
  8
0
  6
Continuous
 62
     7
370
    25
100
AcDbLine
 10
625.598926351
 20
81.8215356857
 30
0.0
 11
789.098922417
 21
81.8215356857
 31
0.0
  0
LINE
  5
B2
330
1F
100
AcDbEntity
  8
0
  6
Continuous
 62
     7
370
    25
100
AcDbLine
 10
372.0989267086
 20
81.8215356857
 30
0.0
 11
535.6124567543
 21
81.8215356857
 31
0.0
  0
LINE
  5
B3
330
1F
100
AcDbEntity
  8
0
  6
Continuous
 62
     7
370
    25
100
AcDbLine
 10
789.098922417
 20
241.8215321095
 30
0.0
 11
372.0989267086
 21
241.8215321095
 31
0.0
  0
LINE
  5
B4
330
1F
100
AcDbEntity
  8
0
  6
Continuous
 62
     7
370
    25
100
AcDbLine
 10
535.5989227747
 20
81.8291278274
 30
0.0
 11
535.5989227747
 21
-25.1784725397
 31
0.0
  0
LINE
  5
B5
330
1F
100
AcDbEntity
  8
0
  6
Continuous
 62
     7
370
    25
100
AcDbLine
 10
625.598926351
 20
-25.1784725397
 30
0.0
 11
625.598926351
 21
81.8215356857
 31
0.0
  0
SPLINE
  5
B6
330
1F
100
AcDbEntity
  8
0
  6
Continuous
 62
     7
370
    25
100
AcDbSpline
210
0.0
220
0.0
230
1.0
 70
     8
 71
     3
 72
    33
 73
    29
 74
     0
 42
0.000000001
 43
0.00000001
 40
0.0
 40
0.0
 40
0.0
 40
0.0
 40
0.0475728156117586
 40
0.0966437491360825
 40
0.1441893545053181
 40
0.1929494238589625
 40
0.2439292111709702
 40
0.2961235275149418
 40
0.3240752169759194
 40
0.3522295511838294
 40
0.3810703963958499
 40
0.4101771161762671
 40
0.4542191626329631
 40
0.4995056887488428
 40
0.5435685210009849
 40
0.5889264554669483
 40
0.6331092295330046
 40
0.6782612887370224
 40
0.7293071923475641
 40
0.7815586789815157
 40
0.8095965031842137
 40
0.8378433706282039
 40
0.8667931272844965
 40
0.8960085905277173
 40
0.9219961557862548
 40
0.9482037001007392
 40
0.9751415028327752
 40
1.0
 40
1.0
 40
1.0
 40
1.0
 10
625.5989263509501
 20
81.82153568574495
 30
0.0
 10
625.4969081993023
 20
81.87914264822192
 30
0.0
 10
625.2896592372975
 20
81.99617067690852
 30
0.0
 10
623.6358409776485
 20
82.91571373767404
 30
0.0
 10
621.0607051382239
 20
84.29730031624418
 30
0.0
 10
617.5338629354629
 20
86.09059637986391
 30
0.0
 10
613.0514581173974
 20
88.19008242694262
 30
0.0
 10
608.5050990686028
 20
90.07318640197957
 30
0.0
 10
604.3697855213628
 20
91.55904193915886
 30
0.0
 10
600.9276599599566
 20
92.6521460852164
 30
0.0
 10
597.2510148958514
 20
93.64695438683223
 30
0.0
 10
592.6963972141912
 20
94.64075790424985
 30
0.0
 10
587.1562902935808
 20
95.4551706356428
 30
0.0
 10
580.7223363536995
 20
95.78429713300889
 30
0.0
 10
574.2235333569829
 20
95.47349636549592
 30
0.0
 10
567.964157337128
 20
94.5718020841517
 30
0.0
 10
561.9964352126522
 20
93.18549059231484
 30
0.0
 10
556.2331635595657
 20
91.39968862514475
 30
0.0
 10
550.7357692878301
 20
89.3036831837769
 30
0.0
 10
546.5083607869739
 20
87.43133940835486
 30
0.0
 10
543.4791283306275
 20
85.9820530978796
 30
0.0
 10
541.3707406004312
 20
84.92621973848829
 30
0.0
 10
539.5322251776857
 20
83.97047479839647
 30
0.0
 10
538.0595347330051
 20
83.18174203239859
 30
0.0
 10
536.9432550119201
 20
82.57114751856113
 30
0.0
 10
536.1650482536699
 20
82.13918557853789
 30
0.0
 10
535.6807604235759
 20
81.86762022004146
 30
0.0
 10
535.6346070519397
 20
81.84161561656899
 30
0.0
 10
535.6124567543258
 20
81.8291352779538
 30
0.0
  0
LINE
  5
B7
330
1F
100
AcDbEntity
  8
0
  6
Continuous
 62
     7
370
    25
100
AcDbLine
 10
789.098922417
 20
241.8215321095
 30
0.0
 11
789.098922417
 21
81.8215356857
 31
0.0
  0
LINE
  5
B8
330
1F
100
AcDbEntity
  8
0
  6
Continuous
 62
     7
370
    25
100
AcDbLine
 10
372.0989267086
 20
241.8215321095
 30
0.0
 11
372.0989267086
 21
81.8215356857
 31
0.0
  0
LINE
  5
B9
330
1F
100
AcDbEntity
  8
0
  6
Continuous
 62
     7
370
    25
100
AcDbLine
 10
625.598926351
 20
-25.1784725397
 30
0.0
 11
535.5989227747
 21
-25.1784725397
 31
0.0
  0
LINE
  5
BA
330
1F
100
AcDbEntity
  8
0
  6
Continuous
 62
     7
370
    25
100
AcDbLine
 10
58.0792613093
 20
-140.5101269912
 30
0.0
 11
58.0792613093
 21
-557.5101226996
 31
0.0
  0
LINE
  5
BB
330
1F
100
AcDbEntity
  8
0
  6
Continuous
 62
     7
370
    25
100
AcDbLine
 10
218.079257733
 20
-557.5101226996
 30
0.0
 11
218.079257733
 21
-140.5101269912
 31
0.0
  0
LINE
  5
BC
330
1F
100
AcDbEntity
  8
0
  6
Continuous
 62
     7
370
    25
100
AcDbLine
 10
218.079257733
 20
-557.5101226996
 30
0.0
 11
58.0792613093
 21
-557.5101226996
 31
0.0
  0
LINE
  5
BD
330
1F
100
AcDbEntity
  8
0
  6
Continuous
 62
     7
370
    25
100
AcDbLine
 10
218.079257733
 20
-140.5101269912
 30
0.0
 11
58.0792613093
 21
-140.5101269912
 31
0.0
  0
LINE
  5
BE
330
1F
100
AcDbEntity
  8
0
  6
Continuous
 62
     7
370
    25
100
AcDbLine
 10
793.0207705269
 20
-341.5304544776
 30
0.0
 11
498.1572458067
 21
-171.3093649144
 31
0.0
  0
LINE
  5
BF
330
1F
100
AcDbEntity
  8
0
  6
Continuous
 62
     7
370
    25
100
AcDbLine
 10
418.1637495916
 20
-309.8771788066
 30
0.0
 11
560.5922612113
 21
-392.0994084154
 31
0.0
  0
LINE
  5
C0
330
1F
100
AcDbEntity
  8
0
  6
Continuous
 62
     7
370
    25
100
AcDbLine
 10
650.5922605535
 20
-444.0553021233
 30
0.0
 11
713.0272743118
 21
-480.0982683699
 31
0.0
  0
LINE
  5
C1
330
1F
100
AcDbEntity
  8
0
  6
Continuous
 62
     7
370
    25
100
AcDbLine
 10
560.592259565
 20
-385.6375944511
 30
0.0
 11
560.592259565
 21
-478.3969537211
 31
0.0
  0
LINE
  5
C2
330
1F
100
AcDbEntity
  8
0
  6
Continuous
 62
     7
370
    25
100
AcDbLine
 10
650.5922605535
 20
-478.3969537211
 30
0.0
 11
650.5922605535
 21
-385.6368400719
 31
0.0
  0
SPLINE
  5
C3
330
1F
100
AcDbEntity
  8
0
  6
Continuous
 62
     7
370
    25
100
AcDbSpline
210
0.0
220
0.0
230
1.0
 70
     8
 71
     3
 72
    13
 73
     9
 74
     0
 42
0.000000001
 43
0.00000001
 40
0.0
 40
0.0
 40
0.0
 40
0.0
 40
0.1906941010129955
 40
0.3873933594856532
 40
0.57797838911682
 40
0.7734315585614778
 40
0.9777823960362763
 40
1.0
 40
1.0
 40
1.0
 40
1.0
 10
573.7724536414266
 20
-372.657896886957
 30
0.0
 10
572.2214210164793
 20
-373.5893271185597
 30
0.0
 10
569.0705121207228
 20
-375.4815192977108
 30
0.0
 10
565.4789601170138
 20
-378.1574955733165
 30
0.0
 10
562.7592610024892
 20
-380.6895456003095
 30
0.0
 10
561.1476189853595
 20
-383.0822272933357
 30
0.0
 10
560.4466430967141
 20
-384.7054329129458
 30
0.0
 10
560.6292492334943
 20
-385.5525233746618
 30
0.0
 10
560.6471558351489
 20
-385.6355901966797
 30
0.0
  0
SPLINE
  5
C4
330
1F
100
AcDbEntity
  8
0
  6
Continuous
 62
     7
370
    25
100
AcDbSpline
210
0.0
220
0.0
230
1.0
 70
     8
 71
     3
 72
    28
 73
    24
 74
     0
 42
0.000000001
 43
0.00000001
 40
0.0
 40
0.0
 40
0.0
 40
0.0
 40
0.0568977979443754
 40
0.0940868152798966
 40
0.1315423373279634
 40
0.1698972175632456
 40
0.2085990261279992
 40
0.2674964025101269
 40
0.3280521918894987
 40
0.3869808073363119
 40
0.4476672100700868
 40
0.506318850697543
 40
0.5662647503963274
 40
0.6338524998591534
 40
0.7030200120914474
 40
0.7403543407211834
 40
0.7779640829944091
 40
0.8164978677858873
 40
0.8553803408129862
 40
0.8906954399666299
 40
0.9263189059248885
 40
0.9629710541359605
 40
1.0
 40
1.0
 40
1.0
 40
1.0
 10
650.5074426550398
 20
-385.6393507122825
 30
0.0
 10
650.4723435879471
 20
-384.0065135714258
 30
0.0
 10
650.4143033902351
 20
-381.3064363803168
 30
0.0
 10
649.5805578525211
 20
-377.5988482385487
 30
0.0
 10
648.5761847852336
 20
-374.4999266514841
 30
0.0
 10
647.1991939236698
 20
-371.4919452829749
 30
0.0
 10
645.1524879967309
 20
-368.1399237809936
 30
0.0
 10
642.1608240025064
 20
-364.650579233644
 30
0.0
 10
637.9994367285636
 20
-361.4741588567196
 30
0.0
 10
633.1146610192219
 20
-359.172816576904
 30
0.0
 10
627.757055758432
 20
-357.8324606277424
 30
0.0
 10
622.0025039850847
 20
-357.3661609570731
 30
0.0
 10
615.7760146643644
 20
-357.6772326298921
 30
0.0
 10
609.0263580451539
 20
-358.7623258070174
 30
0.0
 10
602.9866003229507
 20
-360.2953683962019
 30
0.0
 10
598.0169832257486
 20
-361.847011792109
 30
0.0
 10
594.1388802826525
 20
-363.2034037410441
 30
0.0
 10
590.2713147636363
 20
-364.6929830496266
 30
0.0
 10
586.5750059825468
 20
-366.2433308896036
 30
0.0
 10
583.0936980044105
 20
-367.8152509711887
 30
0.0
 10
579.8304353202125
 20
-369.3933298592792
 30
0.0
 10
576.6776328106178
 20
-371.01760504502
 30
0.0
 10
574.7441425888828
 20
-372.1092720481466
 30
0.0
 10
573.7724536414266
 20
-372.657896886957
 30
0.0
  0
LWPOLYLINE
  5
C5
330
1F
100
AcDbEntity
  8
0
  6
Continuous
 62
     7
370
    25
100
AcDbPolyline
 90
       95
 70
   128
 43
0.0
 10
458.1604976991
 20
-305.9165353513
 10
461.9388596059
 20
-303.589458417
 10
465.7003463097
 20
-300.9810242191
 10
469.4281586693
 20
-298.1028896476
 10
473.1056463747
 20
-294.9678971683
 10
476.7163853259
 20
-291.5900544875
 10
480.244250402
 20
-287.9844499572
 10
483.6734839501
 20
-284.1671826192
 10
486.9887682248
 20
-280.1553082188
 10
490.1752991457
 20
-275.966735789
 10
493.2188468831
 20
-271.6201744234
 10
496.1058111757
 20
-267.1350465892
 10
498.8233056246
 20
-262.531372544
 10
501.3591893032
 20
-257.8297186281
 10
503.7021378803
 20
-253.0510801593
 10
505.8416857665
 20
-248.2168053908
 10
507.7682761638
 20
-243.3484814463
 10
509.4733111153
 20
-238.4678476323
 10
510.9491673096
 20
-233.5967102672
 10
512.1892540333
 20
-228.7568225342
 10
513.1880395126
 20
-223.9697977904
 10
513.9410561815
 20
-219.2570175519
 10
514.4449428289
 20
-214.6395303554
 10
514.6974498667
 20
-210.1379595535
 10
514.6974498667
 20
-205.7724086373
 10
514.4449428289
 20
-201.5623762557
 10
513.9410561815
 20
-197.5266641989
 10
513.1880395126
 20
-193.6832985002
 10
512.1892540333
 20
-190.0494469249
 10
510.9491673096
 20
-186.6413328469
 10
509.4733111153
 20
-183.4741827734
 10
507.7682761638
 20
-180.5621404117
 10
505.8416857665
 20
-177.9182103924
 10
503.7021378803
 20
-175.5542050321
 10
501.3591893032
 20
-173.4806774104
 10
498.8233056246
 20
-171.7068924685
 10
496.1058111757
 20
-170.2407707294
 10
493.2188468831
 20
-169.0888609178
 10
490.1752991457
 20
-168.2563049721
 10
486.9887682248
 20
-167.7468228319
 10
483.6734839501
 20
-167.5626941793
 10
480.244250402
 20
-167.7047356196
 10
476.7163853259
 20
-168.172317406
 10
473.1056463747
 20
-168.9633451813
 10
469.4281586693
 20
-170.0742896294
 10
465.7003463097
 20
-171.5001955942
 10
461.9388596059
 20
-173.2346815028
 10
458.1604976991
 20
-175.2700083697
 10
454.3821357923
 20
-177.597085304
 10
450.6206490886
 20
-180.2055195019
 10
446.8928367289
 20
-183.0836540734
 10
443.2153490235
 20
-186.2186465527
 10
439.6046100723
 20
-189.5964892336
 10
436.0767449962
 20
-193.2020937638
 10
432.6475114482
 20
-197.0193611018
 10
429.3322271734
 20
-201.0312355022
 10
426.1456962525
 20
-205.219807932
 10
423.1021485152
 20
-209.5663692976
 10
420.2151842226
 20
-214.0514971319
 10
417.4976897737
 20
-218.655171177
 10
414.961806095
 20
-223.3568250929
 10
412.6188575179
 20
-228.1354635617
 10
410.4793096318
 20
-232.9697383303
 10
408.5527192344
 20
-237.8380622747
 10
406.847684283
 20
-242.7186960888
 10
405.3718280887
 20
-247.5898334538
 10
404.1317413649
 20
-252.4297211868
 10
403.1329558856
 20
-257.2167459306
 10
402.3799392167
 20
-261.9295261692
 10
401.8760525693
 20
-266.5470133656
 10
401.6235455316
 20
-271.0485841675
 10
401.6235455316
 20
-275.4141350837
 10
401.8760525693
 20
-279.6241674653
 10
402.3799392167
 20
-283.6598795222
 10
403.1329558856
 20
-287.5032452208
 10
404.1317413649
 20
-291.1370967962
 10
405.3718280887
 20
-294.5452108741
 10
406.847684283
 20
-297.7123609476
 10
408.5527192344
 20
-300.6244033094
 10
410.4793096318
 20
-303.2683333286
 10
412.6188575179
 20
-305.632338689
 10
414.961806095
 20
-307.7058663106
 10
417.4976897737
 20
-309.4796512525
 10
420.2151842226
 20
-310.9457729917
 10
423.1021485152
 20
-312.0976828032
 10
426.1456962525
 20
-312.930238749
 10
429.3322271734
 20
-313.4397208892
 10
432.6475114482
 20
-313.6238495418
 10
436.0767449962
 20
-313.4818081014
 10
439.6046100723
 20
-313.014226315
 10
443.2153490235
 20
-312.2231985397
 10
446.8928367289
 20
-311.1122540917
 10
450.6206490886
 20
-309.6863481268
 10
454.3821357923
 20
-307.9518622182
 10
458.1604976991
 20
-305.9165353513
  0
LWPOLYLINE
  5
C6
330
1F
100
AcDbEntity
  8
0
  6
Continuous
 62
     7
370
    25
100
AcDbPolyline
 90
       37
 70
   128
 43
0.0
 10
753.0240224193
 20
-476.1376249145
 10
756.8023843261
 20
-473.8105479803
 10
760.5638710299
 20
-471.2021137823
 10
764.2916833895
 20
-468.3239792108
 10
767.9691710949
 20
-465.1889867315
 10
771.5799100461
 20
-461.8111440507
 10
775.1077751222
 20
-458.2055395204
 10
778.5370086703
 20
-454.3882721824
 10
781.852292945
 20
-450.376397782
 10
785.0388238659
 20
-446.1878253522
 10
788.0823716033
 20
-441.8412639867
 10
790.9693358959
 20
-437.3561361524
 10
793.6868303448
 20
-432.7524621072
 10
796.2227140234
 20
-428.0508081913
 10
798.5656626005
 20
-423.2721697225
 10
800.7052104867
 20
-418.437894954
 10
802.631800884
 20
-413.5695710095
 10
804.3368358355
 20
-408.6889371955
 10
805.8126920298
 20
-403.8177998304
 10
807.0527787535
 20
-398.9779120974
 10
808.0515642328
 20
-394.1908873537
 10
808.8045809017
 20
-389.4781071151
 10
809.3084675491
 20
-384.8606199186
 10
809.5609745869
 20
-380.3590491167
 10
809.5609745869
 20
-375.9934982005
 10
809.3084675491
 20
-371.7834658189
 10
808.8045809017
 20
-367.7477537621
 10
808.0515642328
 20
-363.9043880634
 10
807.0527787535
 20
-360.2705364881
 10
805.8126920298
 20
-356.8624224101
 10
804.3368358355
 20
-353.6952723366
 10
802.631800884
 20
-350.7832299749
 10
800.7052104867
 20
-348.1392999556
 10
798.5656626005
 20
-345.7752945953
 10
796.2227140234
 20
-343.7017669737
 10
793.6868303448
 20
-341.9279820317
 10
793.0207705269
 20
-341.5304544776
  0
LWPOLYLINE
  5
C7
330
1F
100
AcDbEntity
  8
0
  6
Continuous
 62
     7
370
    25
100
AcDbPolyline
 90
       13
 70
   128
 43
0.0
 10
713.0272743118
 20
-480.0982683699
 10
715.0787089428
 20
-481.1668625549
 10
717.9656732354
 20
-482.3187723665
 10
721.0092209727
 20
-483.1513283122
 10
724.1957518936
 20
-483.6608104524
 10
727.5110361684
 20
-483.844939105
 10
730.9402697165
 20
-483.7028976646
 10
734.4681347926
 20
-483.2353158782
 10
738.0788737437
 20
-482.4442881029
 10
741.7563614492
 20
-481.3333436549
 10
745.4841738088
 20
-479.90743769
 10
749.2456605125
 20
-478.1729517815
 10
753.0240224193
 20
-476.1376249145
  0
LWPOLYLINE
  5
C8
330
1F
100
AcDbEntity
  8
0
  6
Continuous
 62
     7
370
    25
100
AcDbPolyline
 90
       90
 70
   128
 43
0.0
 10
458.1604976991
 20
-298.1594001692
 10
461.6769373573
 20
-295.9860037978
 10
465.1758584145
 20
-293.5366467272
 10
468.6398288682
 20
-290.8235337017
 10
472.051591889
 20
-287.8601675922
 10
475.3941504431
 20
-284.6613248792
 10
478.6508519156
 20
-281.2429337964
 10
481.8054724038
 20
-277.6220317532
 10
484.8422924504
 20
-273.816651652
 10
487.7461866052
 20
-269.8457549761
 10
490.5026853283
 20
-265.7291260914
 10
493.0980592836
 20
-261.4872688309
 10
495.5193746571
 20
-257.1413198076
 10
497.7545695476
 20
-252.7129282682
 10
499.7925092846
 20
-248.2241602801
 10
501.6230391116
 20
-243.6973740203
 10
503.2370421386
 20
-239.1551224418
 10
504.6264762201
 20
-234.6200346446
 10
505.7844187361
 20
-230.1147078946
 10
506.7051008367
 20
-225.6615829103
 10
507.3839390522
 20
-221.2828457665
 10
507.8175458297
 20
-217.0003142058
 10
508.0037611432
 20
-212.8353230022
 10
507.9416630302
 20
-208.8086184474
 10
507.6315570556
 20
-204.9402636723
 10
507.0749868476
 20
-201.2495321836
 10
506.2747340982
 20
-197.7548038697
 10
505.2347711479
 20
-194.4735005478
 10
503.9602873274
 20
-191.4219627711
 10
502.4576362742
 20
-188.6153912678
 10
500.7342937854
 20
-186.0677731731
 10
498.7988551841
 20
-183.7917953354
 10
496.6609536592
 20
-181.7988032439
 10
494.3312470951
 20
-180.0987204187
 10
491.8213416801
 20
-178.7000164634
 10
489.1437365892
 20
-177.6096659956
 10
486.3117765681
 20
-176.8330938889
 10
483.3395676402
 20
-176.374172223
 10
480.2419165203
 20
-176.2351852968
 10
477.0342581744
 20
-176.4168288613
 10
473.7325715267
 20
-176.918197944
 10
470.3533057017
 20
-177.736792926
 10
466.9132957313
 20
-178.868534743
 10
463.4296802363
 20
-180.3077819885
 10
459.9198135109
 20
-182.047375582
 10
456.4011818873
 20
-184.0786383816
 10
452.8913151619
 20
-186.3914506514
 10
449.4076996669
 20
-188.9743002437
 10
445.9676896965
 20
-191.8143093974
 10
442.5884238715
 20
-194.8973316887
 10
439.2867372238
 20
-198.2080088678
 10
436.079078878
 20
-201.7298487985
 10
432.981427758
 20
-205.4453075805
 10
430.0092188302
 20
-209.33586863
 10
427.1772588091
 20
-213.3821521793
 10
424.4996537181
 20
-217.5639996807
 10
421.9897483032
 20
-221.8605787451
 10
419.6600417391
 20
-226.2504835148
 10
417.5221402142
 20
-230.7118441662
 10
415.5867016128
 20
-235.222431848
 10
413.863359124
 20
-239.7597788277
 10
412.3607080708
 20
-244.3012743081
 10
411.0862242503
 20
-248.8242997825
 10
410.0462613
 20
-253.3063187688
 10
409.2460085506
 20
-257.7249992403
 10
408.6894383426
 20
-262.0583330131
 10
408.379332368
 20
-266.2847285253
 10
408.3172342551
 20
-270.3831300352
 10
408.5034495685
 20
-274.3331216143
 10
408.937056346
 20
-278.1150214459
 10
409.6158945615
 20
-281.7099886691
 10
410.5365766622
 20
-285.1001167265
 10
411.6945191782
 20
-288.268511505
 10
413.0839532596
 20
-291.1993928582
 10
414.6979562866
 20
-293.8781562072
 10
416.5284861137
 20
-296.2914577154
 10
418.5664258506
 20
-298.4272705674
 10
420.8016207411
 20
-300.274961018
 10
423.2229361146
 20
-301.8253188168
 10
425.81831007
 20
-303.0706210919
 10
428.574808793
 20
-304.0046642943
 10
431.4787029478
 20
-304.6227961446
 10
434.5155229944
 20
-304.9219384524
 10
437.6701434827
 20
-304.9005932073
 10
440.9268449551
 20
-304.5588768061
 10
444.2694035092
 20
-303.8984835587
 10
447.68116653
 20
-302.9227119313
 10
451.1451369838
 20
-301.6364098008
 10
454.6440580409
 20
-300.0459986077
 10
458.1604976991
 20
-298.1594001692
  0
LWPOLYLINE
  5
C9
330
1F
100
AcDbEntity
  8
0
  6
Continuous
 62
     7
370
    25
100
AcDbPolyline
 90
       67
 70
   128
 43
0.0
 10
633.5936884425
 20
-494.5618342476
 10
636.1285999448
 20
-492.9520682977
 10
638.3869708276
 20
-491.2104895458
 10
640.3483491678
 20
-489.3528705654
 10
641.9949679287
 20
-487.3960312976
 10
643.3119193088
 20
-485.3576958218
 10
644.2872750916
 20
-483.256322515
 10
644.9122048538
 20
-481.1109415296
 10
645.1810451124
 20
-478.9409825763
 10
645.0913645213
 20
-476.7660973845
 10
644.6439717731
 20
-474.6059817838
 10
643.8429221849
 20
-472.4801970233
 10
642.6954689658
 20
-470.4079956547
 10
641.2120019726
 20
-468.408143232
 10
639.4059594645
 20
-466.4987502773
 10
637.2936944188
 20
-464.6971099477
 10
634.8943345899
 20
-463.0195381742
 10
632.2296112881
 20
-461.4812261559
 10
629.3236568768
 20
-460.0961052098
 10
626.202786136
 20
-458.8767205542
 10
622.8952621497
 20
-457.8341144068
 10
619.4310407905
 20
-456.9777271404
 10
615.8414938016
 20
-456.3153164968
 10
612.1591275985
 20
-455.8528804127
 10
608.4172921921
 20
-455.5946060767
 10
604.6498723316
 20
-455.5428345735
 10
600.8909858908
 20
-455.6980327513
 10
597.1746743525
 20
-456.0587970239
 10
593.5345946093
 20
-456.6218579322
 10
590.0037114237
 20
-457.3821177814
 10
586.6139991072
 20
-458.3326905585
 10
583.3961599926
 20
-459.4649701731
 10
580.3793302291
 20
-460.7686999331
 10
577.590831676
 20
-462.2320731946
 10
575.0559201736
 20
-463.8418391445
 10
572.7975492909
 20
-465.5834178964
 10
570.8361709506
 20
-467.4410368767
 10
569.1895521898
 20
-469.3978761445
 10
567.8726008096
 20
-471.4362116204
 10
566.8972450268
 20
-473.5375849271
 10
566.2723152647
 20
-475.6829659125
 10
566.003475006
 20
-477.8529248659
 10
566.0931555971
 20
-480.0278100576
 10
566.5405483453
 20
-482.1879256584
 10
567.3415979336
 20
-484.3137104188
 10
568.4890511526
 20
-486.3859117875
 10
569.9725181458
 20
-488.3857642101
 10
571.7785606539
 20
-490.2951571648
 10
573.8908256996
 20
-492.0967974945
 10
576.2901855286
 20
-493.774369268
 10
578.9549088304
 20
-495.3126812863
 10
581.8608632417
 20
-496.6978022323
 10
584.9817339824
 20
-497.9171868879
 10
588.2892579687
 20
-498.9597930353
 10
591.7534793279
 20
-499.8161803018
 10
595.3430263168
 20
-500.4785909453
 10
599.02539252
 20
-500.9410270294
 10
602.7672279263
 20
-501.1993013654
 10
606.5346477869
 20
-501.2510728687
 10
610.2935342276
 20
-501.0958746908
 10
614.009845766
 20
-500.7351104183
 10
617.6499255092
 20
-500.1720495099
 10
621.1808086948
 20
-499.4117896608
 10
624.5705210113
 20
-498.4612168836
 10
627.7883601259
 20
-497.328937269
 10
630.8051898894
 20
-496.0252075091
 10
633.5936884425
 20
-494.5618342476
  0
LWPOLYLINE
  5
CA
330
1F
100
AcDbEntity
  8
0
  6
Continuous
 62
     7
370
    25
100
AcDbPolyline
 90
       72
 70
   128
 43
0.0
 10
637.412066477
 20
-496.766136967
 10
640.0997864824
 20
-495.0707842787
 10
642.5174393606
 20
-493.2449364564
 10
644.6461028231
 20
-491.3028838872
 10
646.4691179988
 20
-489.2598244232
 10
647.9722148867
 20
-487.1317483802
 10
649.1436299062
 20
-484.9353098502
 10
649.9741980935
 20
-482.687700485
 10
650.4574196142
 20
-480.4065107344
 10
650.5895078374
 20
-478.109592605
 10
650.3694314825
 20
-475.8149243195
 10
649.7989146189
 20
-473.5404628114
 10
648.8824182271
 20
-471.3040114255
 10
647.6271191253
 20
-469.1230708915
 10
646.0428408217
 20
-467.0147112071
 10
644.1419817339
 20
-464.9954328756
 10
641.9394170652
 20
-463.0810403098
 10
639.452388828
 20
-461.286514475
 10
636.7003566831
 20
-459.6259024498
 10
633.7048645849
 20
-458.1121978627
 10
630.4893511202
 20
-456.7572496514
 10
627.0789855308
 20
-455.5716613175
 10
623.5004573086
 20
-454.5647120421
 10
619.7817697417
 20
-453.7442831223
 10
615.9520331315
 20
-453.1167933423
 10
612.0412165214
 20
-452.6871560148
 10
608.0799290603
 20
-452.4587318395
 10
604.0991710722
 20
-452.4333098949
 10
600.1300982979
 20
-452.6110886294
 10
596.203776916
 20
-452.9906773825
 10
592.3509293448
 20
-453.5691032275
 10
588.6017142887
 20
-454.3418421455
 10
584.9854764909
 20
-455.3028448771
 10
581.5305122918
 20
-456.4445901457
 10
578.2638615289
 20
-457.7581409233
 10
575.211096638
 20
-459.2332205589
 10
572.3961036869
 20
-460.8582813992
 10
569.8409139528
 20
-462.6206050586
 10
567.5655307252
 20
-464.5064024036
 10
565.5877556145
 20
-466.5009107815
 10
563.923069685
 20
-468.5885204261
 10
562.5845015814
 20
-470.752896208
 10
561.5825300638
 20
-472.9770977674
 10
560.9249918118
 20
-475.2437148549
 10
560.6170366435
 20
-477.5350117958
 10
560.6610735148
 20
-479.8330544671
 10
561.0567586653
 20
-482.1198570425
 10
561.8009929847
 20
-484.3775234157
 10
562.8879549394
 20
-486.5883833013
 10
564.3091335003
 20
-488.7351359387
 10
566.0534098019
 20
-490.8009763088
 10
568.107131558
 20
-492.7697384572
 10
570.4542250142
 20
-494.6260148685
 10
573.0763223764
 20
-496.3552756484
 10
575.9528984586
 20
-497.9439899889
 10
579.0614451974
 20
-499.3797208299
 10
582.3776297025
 20
-500.6512343482
 10
585.875501369
 20
-501.748576942
 10
589.5276831846
 20
-502.6631613392
 10
593.3055923421
 20
-503.3878300857
 10
597.1796595344
 20
-503.9169121908
 10
601.1195693237
 20
-504.2462645657
 10
605.0944820707
 20
-504.3733119411
 10
609.0732920841
 20
-504.2970590329
 10
613.0248567941
 20
-504.0181011868
 10
616.9182522677
 20
-503.5386243782
 10
620.7230076506
 20
-502.8623808817
 10
624.4093429015
 20
-501.9946615183
 10
627.9484091611
 20
-500.9422572584
 10
631.312507389
 20
-499.7134059983
 10
634.4753112806
 20
-498.3177246996
 10
637.412066477
 20
-496.766136967
  0
ENDSEC
  0
SECTION
  2
OBJECTS
  0
DICTIONARY
  5
C
330
0
100
AcDbDictionary
281
     1
  3
ACAD_GROUP
350
D
  3
ACAD_LAYOUT
350
1A
  3
ACAD_MLINESTYLE
350
17
  3
ACAD_PLOTSETTINGS
350
19
  3
ACAD_PLOTSTYLENAME
350
E
  3
ACAD_SCALELIST
350
47
  0
DICTIONARY
  5
D
102
{ACAD_REACTORS
330
C
102
}
330
C
100
AcDbDictionary
281
     1
  0
DICTIONARY
  5
1A
102
{ACAD_REACTORS
330
C
102
}
330
C
100
AcDbDictionary
281
     1
  3
Layout1
350
1E
  3
Layout2
350
26
  3
Model
350
22
  0
DICTIONARY
  5
17
102
{ACAD_REACTORS
330
C
102
}
330
C
100
AcDbDictionary
281
     1
  3
Standard
350
18
  0
DICTIONARY
  5
19
102
{ACAD_REACTORS
330
C
102
}
330
C
100
AcDbDictionary
281
     1
  0
ACDBDICTIONARYWDFLT
  5
E
102
{ACAD_REACTORS
330
C
102
}
330
C
100
AcDbDictionary
281
     1
  3
Normal
350
F
100
AcDbDictionaryWithDefault
340
F
  0
DICTIONARY
  5
47
102
{ACAD_REACTORS
330
C
102
}
330
C
100
AcDbDictionary
281
     1
  3
A0
350
48
  3
A1
350
49
  3
A2
350
4A
  3
A3
350
4B
  3
A4
350
4C
  3
A5
350
4D
  3
A6
350
4E
  3
A7
350
4F
  3
A8
350
50
  3
A9
350
51
  3
B0
350
52
  3
B1
350
53
  3
B2
350
54
  3
B3
350
55
  3
B4
350
56
  3
B5
350
57
  3
B6
350
58
  3
B7
350
59
  3
B8
350
5A
  3
B9
350
5B
  3
C0
350
5C
  3
C1
350
5D
  3
C2
350
5E
  3
C3
350
5F
  3
C4
350
60
  3
C5
350
61
  3
C6
350
62
  3
C7
350
63
  3
C8
350
64
  3
C9
350
65
  3
D0
350
66
  3
D1
350
67
  3
D2
350
68
  0
LAYOUT
  5
1E
102
{ACAD_REACTORS
330
1A
102
}
330
1A
100
AcDbPlotSettings
  1

  2
none_device
  4

  6

 40
0.0
 41
0.0
 42
0.0
 43
0.0
 44
0.0
 45
0.0
 46
0.0
 47
0.0
 48
0.0
 49
0.0
140
0.0
141
0.0
142
1.0
143
1.0
 70
   688
 72
     1
 73
     0
 74
     5
  7

 75
    16
147
1.0
148
0.0
149
0.0
100
AcDbLayout
  1
Layout1
 70
     1
 71
     1
 10
0.0
 20
0.0
 11
420.0
 21
297.0
 12
0.0
 22
0.0
 32
0.0
 14
1.0000000000E+20
 24
1.0000000000E+20
 34
1.0000000000E+20
 15
-1.0000000000E+20
 25
-1.0000000000E+20
 35
-1.0000000000E+20
146
0.0
 13
0.0
 23
0.0
 33
0.0
 16
1.0
 26
0.0
 36
0.0
 17
0.0
 27
1.0
 37
0.0
 76
     0
330
1B
  0
LAYOUT
  5
26
102
{ACAD_REACTORS
330
1A
102
}
330
1A
100
AcDbPlotSettings
  1

  2
none_device
  4

  6

 40
0.0
 41
0.0
 42
0.0
 43
0.0
 44
0.0
 45
0.0
 46
0.0
 47
0.0
 48
0.0
 49
0.0
140
0.0
141
0.0
142
1.0
143
1.0
 70
   688
 72
     1
 73
     0
 74
     5
  7

 75
    16
147
1.0
148
0.0
149
0.0
100
AcDbLayout
  1
Layout2
 70
     1
 71
     2
 10
0.0
 20
0.0
 11
0.0
 21
0.0
 12
0.0
 22
0.0
 32
0.0
 14
0.0
 24
0.0
 34
0.0
 15
0.0
 25
0.0
 35
0.0
146
0.0
 13
0.0
 23
0.0
 33
0.0
 16
1.0
 26
0.0
 36
0.0
 17
0.0
 27
1.0
 37
0.0
 76
     0
330
23
  0
LAYOUT
  5
22
102
{ACAD_REACTORS
330
1A
102
}
330
1A
100
AcDbPlotSettings
  1

  2
none_device
  4
Letter_(8.50_x_11.00_Inches)
  6

 40
6.35
 41
6.35
 42
6.35000508
 43
6.35000508
 44
215.9
 45
279.4
 46
0.0
 47
0.0
 48
0.0
 49
0.0
140
0.0
141
0.0
142
1.0
143
1.0
 70
  1712
 72
     1
 73
     0
 74
     0
  7

 75
     0
147
1.0
148
0.0
149
0.0
100
AcDbLayout
  1
Model
 70
     1
 71
     0
 10
0.0
 20
0.0
 11
279.4
 21
215.9
 12
0.0
 22
0.0
 32
0.0
 14
0.0
 24
0.0
 34
0.0
 15
279.4
 25
215.9
 35
0.0
146
0.0
 13
0.0
 23
0.0
 33
0.0
 16
1.0
 26
0.0
 36
0.0
 17
0.0
 27
1.0
 37
0.0
 76
     0
330
1F
331
29
  0
MLINESTYLE
  5
18
102
{ACAD_REACTORS
330
17
102
}
330
17
100
AcDbMlineStyle
  2
Standard
 70
     0
  3

 62
   256
 51
90.0
 52
90.0
 71
     2
 49
0.5
 62
   256
  6
BYLAYER
 49
-0.5
 62
   256
  6
BYLAYER
  0
ACDBPLACEHOLDER
  5
F
102
{ACAD_REACTORS
330
E
102
}
330
E
  0
SCALE
  5
48
102
{ACAD_REACTORS
330
47
102
}
330
47
100
AcDbScale
 70
     0
300
1:1
140
1.0
141
1.0
290
     1
  0
SCALE
  5
49
102
{ACAD_REACTORS
330
47
102
}
330
47
100
AcDbScale
 70
     0
300
1:2
140
1.0
141
2.0
290
     0
  0
SCALE
  5
4A
102
{ACAD_REACTORS
330
47
102
}
330
47
100
AcDbScale
 70
     0
300
1:4
140
1.0
141
4.0
290
     0
  0
SCALE
  5
4B
102
{ACAD_REACTORS
330
47
102
}
330
47
100
AcDbScale
 70
     0
300
1:5
140
1.0
141
5.0
290
     0
  0
SCALE
  5
4C
102
{ACAD_REACTORS
330
47
102
}
330
47
100
AcDbScale
 70
     0
300
1:8
140
1.0
141
8.0
290
     0
  0
SCALE
  5
4D
102
{ACAD_REACTORS
330
47
102
}
330
47
100
AcDbScale
 70
     0
300
1:10
140
1.0
141
10.0
290
     0
  0
SCALE
  5
4E
102
{ACAD_REACTORS
330
47
102
}
330
47
100
AcDbScale
 70
     0
300
1:16
140
1.0
141
16.0
290
     0
  0
SCALE
  5
4F
102
{ACAD_REACTORS
330
47
102
}
330
47
100
AcDbScale
 70
     0
300
1:20
140
1.0
141
20.0
290
     0
  0
SCALE
  5
50
102
{ACAD_REACTORS
330
47
102
}
330
47
100
AcDbScale
 70
     0
300
1:30
140
1.0
141
30.0
290
     0
  0
SCALE
  5
51
102
{ACAD_REACTORS
330
47
102
}
330
47
100
AcDbScale
 70
     0
300
1:40
140
1.0
141
40.0
290
     0
  0
SCALE
  5
52
102
{ACAD_REACTORS
330
47
102
}
330
47
100
AcDbScale
 70
     0
300
1:50
140
1.0
141
50.0
290
     0
  0
SCALE
  5
53
102
{ACAD_REACTORS
330
47
102
}
330
47
100
AcDbScale
 70
     0
300
1:100
140
1.0
141
100.0
290
     0
  0
SCALE
  5
54
102
{ACAD_REACTORS
330
47
102
}
330
47
100
AcDbScale
 70
     0
300
2:1
140
2.0
141
1.0
290
     0
  0
SCALE
  5
55
102
{ACAD_REACTORS
330
47
102
}
330
47
100
AcDbScale
 70
     0
300
4:1
140
4.0
141
1.0
290
     0
  0
SCALE
  5
56
102
{ACAD_REACTORS
330
47
102
}
330
47
100
AcDbScale
 70
     0
300
8:1
140
8.0
141
1.0
290
     0
  0
SCALE
  5
57
102
{ACAD_REACTORS
330
47
102
}
330
47
100
AcDbScale
 70
     0
300
10:1
140
10.0
141
1.0
290
     0
  0
SCALE
  5
58
102
{ACAD_REACTORS
330
47
102
}
330
47
100
AcDbScale
 70
     0
300
100:1
140
100.0
141
1.0
290
     0
  0
SCALE
  5
59
102
{ACAD_REACTORS
330
47
102
}
330
47
100
AcDbScale
 70
     0
300
1/128" = 1'-0"
140
0.0078125
141
12.0
290
     0
  0
SCALE
  5
5A
102
{ACAD_REACTORS
330
47
102
}
330
47
100
AcDbScale
 70
     0
300
1/64" = 1'-0"
140
0.015625
141
12.0
290
     0
  0
SCALE
  5
5B
102
{ACAD_REACTORS
330
47
102
}
330
47
100
AcDbScale
 70
     0
300
1/32" = 1'-0"
140
0.03125
141
12.0
290
     0
  0
SCALE
  5
5C
102
{ACAD_REACTORS
330
47
102
}
330
47
100
AcDbScale
 70
     0
300
1/16" = 1'-0"
140
0.0625
141
12.0
290
     0
  0
SCALE
  5
5D
102
{ACAD_REACTORS
330
47
102
}
330
47
100
AcDbScale
 70
     0
300
3/32" = 1'-0"
140
0.09375
141
12.0
290
     0
  0
SCALE
  5
5E
102
{ACAD_REACTORS
330
47
102
}
330
47
100
AcDbScale
 70
     0
300
1/8" = 1'-0"
140
0.125
141
12.0
290
     0
  0
SCALE
  5
5F
102
{ACAD_REACTORS
330
47
102
}
330
47
100
AcDbScale
 70
     0
300
3/16" = 1'-0"
140
0.1875
141
12.0
290
     0
  0
SCALE
  5
60
102
{ACAD_REACTORS
330
47
102
}
330
47
100
AcDbScale
 70
     0
300
1/4" = 1'-0"
140
0.25
141
12.0
290
     0
  0
SCALE
  5
61
102
{ACAD_REACTORS
330
47
102
}
330
47
100
AcDbScale
 70
     0
300
3/8" = 1'-0"
140
0.375
141
12.0
290
     0
  0
SCALE
  5
62
102
{ACAD_REACTORS
330
47
102
}
330
47
100
AcDbScale
 70
     0
300
1/2" = 1'-0"
140
0.5
141
12.0
290
     0
  0
SCALE
  5
63
102
{ACAD_REACTORS
330
47
102
}
330
47
100
AcDbScale
 70
     0
300
3/4" = 1'-0"
140
0.75
141
12.0
290
     0
  0
SCALE
  5
64
102
{ACAD_REACTORS
330
47
102
}
330
47
100
AcDbScale
 70
     0
300
1" = 1'-0"
140
1.0
141
12.0
290
     0
  0
SCALE
  5
65
102
{ACAD_REACTORS
330
47
102
}
330
47
100
AcDbScale
 70
     0
300
1-1/2" = 1'-0"
140
1.5
141
12.0
290
     0
  0
SCALE
  5
66
102
{ACAD_REACTORS
330
47
102
}
330
47
100
AcDbScale
 70
     0
300
3" = 1'-0"
140
3.0
141
12.0
290
     0
  0
SCALE
  5
67
102
{ACAD_REACTORS
330
47
102
}
330
47
100
AcDbScale
 70
     0
300
6" = 1'-0"
140
6.0
141
12.0
290
     0
  0
SCALE
  5
68
102
{ACAD_REACTORS
330
47
102
}
330
47
100
AcDbScale
 70
     0
300
1'-0" = 1'-0"
140
12.0
141
12.0
290
     0
  0
ENDSEC
  0
EOF
